Guadiana (by Mark Varelas and Jenny O'Connor)

 

Part A

 

D |------------------------------------------------------------------------------------------------

A |-0-----4-----5-----7--7--7--7--5-----7-----8-----7--8--10----8-----7--7--7--7--7--7--7--7--7----

F |------------------------------------------------------------------------------------------------

C |------------------------------------------------------------------------------------------------

 

D |------------------------------------------------------------------------------------------------

A |-0-----4-----5-----7--7--7--7--5--5--4--4--5--5--5--5--4--4--1--1--0--1--4--4--4--4--4--4--4----

F |------------------------------------------------------------------------------------------------

C |------------------------------------------------------------------------------------------------

 

D |------------------------------------------------------------------------------------------------

A |-0-----4-----5-----7--7--7--7--12-12-12-12-10-12-10-12-8--10-8--10-7--8--7--8--7--8--7--8--7----

F |------------------------------------------------------------------------------------------------

C |------------------------------------------------------------------------------------------------

 

D |------------------------------------------------------------------------------------------------

A |-0-----4-----5-----7-----5-----4--5--4--7--5-----4-----1-----4-----0--0--0--0--0--0--0--0--0--0-

F |------------------------------------------------------------------------------------------------

C |------------------------------------------------------------------------------------------------

 

D |------------------                                                                             

A |-0--0--0--0--0--0-                                                                              

F |------------------                                                                             

C |------------------                                                                              

 

Part B

 

D |-------------------7--7--5--5-------------------------------------------------------------------

A |-5--5--5--5--5--5--------------8--8--7--7--5--5--3--3--3--3--3--3--3--3--3--3--3--3--3--3--3--3-

F |------------------------------------------------------------------------------------------------

C |------------------------------------------------------------------------------------------------

 

D |-------------------3--3--2--2--0--0-------------------------------------------------------------

A |-1--1--1--1--1--1--------------------4--4--1--1--0--0--0--0--0--0--0--0--0--0--0--0--0--0--0--0-

F |------------------------------------------------------------------------------------------------

C |------------------------------------------------------------------------------------------------

 

D |-------------5-----7-----5----------------------------------------------------------------------

A |-5--7--8-----------------------8-----7-----5-----3--5--3--5--3--5--3--5--3--5--3--5--3--5--3--5-

F |------------------------------------------------------------------------------------------------

C |------------------------------------------------------------------------------------------------

 

D |-------0-----2-----3-----2-----0----------------------------------------------------------------

A |-1--3--------------------------------4-----1-----0--0--0--0--0--0--0--0--0----------------------

F |------------------------------------------------------------------------------------------------

C |------------------------------------------------------------------------------------------------

 

Part C

 

D |-14-12-11----11----11----12-11-8-----8-----8-----11-8--7-----7-----7-----8--7--8-----11----12---

A |------------------------------------------------------------------------------------------------

F |------------------------------------------------------------------------------------------------

C |------------------------------------------------------------------------------------------------

 

D |-14-12-11----11----11----12-11-8-----8-----8-----11----8--11-8--11-8--11-7-----7--8--7----------

A |------------------------------------------------------------------------------------------------

F |------------------------------------------------------------------------------------------------

C |------------------------------------------------------------------------------------------------

 

D |-14-12-11-12-11-12-11----12-11-8--11-8--11-8-----11-8--7--8--7--8--7--8--11-12-11-8--7--8--11-12

A |------------------------------------------------------------------------------------------------

F |------------------------------------------------------------------------------------------------

C |------------------------------------------------------------------------------------------------

 

D |-14-12-11-12-11-12-11----12-11-8--11-8--11-8-----11----8--11-8--11-8--11-7-----7--8--7----------

A |------------------------------------------------------------------------------------------------

F |------------------------------------------------------------------------------------------------

C |------------------------------------------------------------------------------------------------

 

Part D

 

D |------------------------------------------------------------------------------------------------

A |-12-10-8-----8-----8-----10-8--7-----7-----7-----8--7--5-----5-----5-----7--5--4-----5-----7----

F |------------------------------------------------------------------------------------------------

C |------------------------------------------------------------------------------------------------

 

D |------------------------------------------------------------------------------------------------

A |-12-10-8-----8-----8-----10-8--7-----7-----7-----8--7--5-----4-----1-----0-----0--1--0----------

F |------------------------------------------------------------------------------------------------

C |------------------------------------------------------------------------------------------------

 

D |------------------------------------------------------------------------------------------------

A |-12-10-8--12-10-8--10-12-10-8--7--10-8--7--8--10-8--7--5--8--7--5--7--8--7--5--4--5--7--8--10-12

F |------------------------------------------------------------------------------------------------

C |------------------------------------------------------------------------------------------------

 

D |------------------------------------------------------------------------------------           

A |-12-10-8--12-10-8--10-12-10-8--7--10-8--7--8--10-8--7-----5-----4-----1-----0-------           

F |------------------------------------------------------------------------------------           

C |------------------------------------------------------------------------------------           

 

Part A an octave higher

 

D |-------11----12----14-14-14-14-12----14----15----14-15-17----15----14-14-14-14-14-14-14-14-14---

A |-12-13------------------------------------------------------------------------------------------

F |------------------------------------------------------------------------------------------------

C |------------------------------------------------------------------------------------------------

 

D |-------11----12----14-14-14-14-12-12-11-11-12-12-12-12-11-11-8--8--11-12-11-11-11-11-11-11-11---

A |-12-13------------------------------------------------------------------------------------------

F |------------------------------------------------------------------------------------------------

C |------------------------------------------------------------------------------------------------

 

D |-------11----12----14-14-14-14-19-19-19-19-17-19-17-19-15-17-15-17-14-15-14-17-14-15-14-19-14---

A |-12-13------------------------------------------------------------------------------------------

F |------------------------------------------------------------------------------------------------

C |------------------------------------------------------------------------------------------------

 

D |-------11----12----14----12-------11-12-11-14-12----11----8--11----7--8--7--8--7--8--7--8--7----

A |-12-13------------------------------------------------------------------------------------------

F |------------------------------------------------------------------------------------------------

C |------------------------------------------------------------------------------------------------

 

Part B an octave higher

 

D |-12-12-12-12-12-12-19-19-17-17-15-15-14-14-12-12-10-10-10-10-10-10-10-10-10-10-10-10-10-10-10-10

A |------------------------------------------------------------------------------------------------

F |------------------------------------------------------------------------------------------------

C |------------------------------------------------------------------------------------------------

 

D |-8--8--8--8--8--8--15-15-14-14-12-12-11-11------------------------------------------------------

A |-------------------------------------------13-13-12-12-12-12-12-12-12-12-12-12-12-12-12-12-12-12

F |------------------------------------------------------------------------------------------------

C |------------------------------------------------------------------------------------------------

 

D |-12-12-12-12-19-19-19-19-17-19-15-17-14-15-12-14-10-12-10-12-14-15-14-15-17-19-17-19-10-12-10-12

A |------------------------------------------------------------------------------------------------

F |------------------------------------------------------------------------------------------------

C |------------------------------------------------------------------------------------------------

 

D |-8--8--8--8--15-15-14-15-12-14-11-12-8--11-7--8--7--8--7--8--7--8--7--8--7--8--7--8--7--8--7--8-

A |------------------------------------------------------------------------------------------------

F |------------------------------------------------------------------------------------------------

C |------------------------------------------------------------------------------------------------

 

D |-7--8--7--8--7--8--7--8--7--8--7--8--7--8--7--8--7--8-                                         

A |------------------------------------------------------                                         

F |------------------------------------------------------                                         

C |------------------------------------------------------                                          

 

Solo to be improvised

 

Part D  

 

D |------------------------------------------------------------------------------------------------

A |-12-10-8-----8-----8-----10-8--7-----7-----7-----8--7--5-----5-----5-----7--5--4-----5-----7----

F |------------------------------------------------------------------------------------------------

C |------------------------------------------------------------------------------------------------

 

D |------------------------------------------------------------------------------------------------

A |-12-10-8-----8-----8-----10-8--7-----7-----7-----8--7--5-----4-----1-----0-----0--1--0----------

F |------------------------------------------------------------------------------------------------

C |------------------------------------------------------------------------------------------------

 

D |------------------------------------------------------------------------------------------------

A |-12-10-8--12-10-8--10-12-10-8--7--10-8--7--8--10-8--7--5--8--7--5--7--8--7--5--4--5--7--8--10-12

F |------------------------------------------------------------------------------------------------

C |------------------------------------------------------------------------------------------------

 

D |------------------------------------------------------------------------------------           

A |-12-10-8--12-10-8--10-12-10-8--7--10-8--7--8--10-8--7-----5-----4-----1-----0-------           

F |------------------------------------------------------------------------------------           

C |------------------------------------------------------------------------------------           

 

Part A

 

D |-------11----12----14-14-14-14-12----14----15----14-15-17----15----14-14-14-14-14-14-14-14-14---

A |-12-13------------------------------------------------------------------------------------------

F |------------------------------------------------------------------------------------------------

C |------------------------------------------------------------------------------------------------

 

D |-------11----12----14-14-14-14-12-12-11-11-12-12-12-12-11-11-8--8--11-12-11-11-11-11-11-11-11---

A |-12-13------------------------------------------------------------------------------------------

F |------------------------------------------------------------------------------------------------

C |------------------------------------------------------------------------------------------------

 

D |-------11----12----14-14-14-14-19-19-19-19-17-19-17-19-15-17-15-17-14-15-14-17-14-15-14-19-14---

A |-12-13------------------------------------------------------------------------------------------

F |------------------------------------------------------------------------------------------------

C |------------------------------------------------------------------------------------------------

 

D |-------11----12----14----12-------11-12-11-14-12-0--11-0--8--0--7--8--7-----8--------7----------

A |-12-13------------------------------------------------------------------------------------------

F |------------------------------------------------------------------------------------------------

C |------------------------------------------------------------------------------------------------